0-9 A B C D E F G H I J K L M N O P Q R S T U V W X Y Z

Hijos del Sol — Cariñito bass tabs

5.0 / 5 (1x)
  Rate this tab:
(submitted by cvillavicencio)
G|—————————————————————————————————————————————————|
D|—————————————————3—————3—————————————————————————|
A|——5——0——5——3——5—————3————————————————————————————|
E|—————————————————————————————————————————————————|

G|—————————————————————————————————————————————————|
D|——3—————3——3——5——3———————————————————————————————|
A|—————3——————————————5——0——5——————————————————————|
E|—————————————————————————————————————————————————|

G|——2——2——2——0——2———————0——2——5——0——2——————————————|
D|—————————————————3——3————————————————3——0————————|
A|—————————————————————————————————————————————————|
E|—————————————————————————————————————————————————|
Tablature player for this song:

Comments

Tabs:
G|---------------------------------------------------|
D|-2-2---5--2------------------------------5-3-5-3--2|
A|------------5--3-2---------------------------------|
E|--------------------3-3-3-3-3-3--5-5-5-5-5---------|
Tabs:
G|---------------------------------------------------|
D|-2-2---5--2------------------------------5-3-5-3--2|
A|------------5--3-2---------------------------------|
E|--------------------3-3-3-3-3-3--5-5-5-5-5---------|

Post a comment